a b c d e f g h i j k l m n o p q r s t u v w x y z 0-9

Las Cuerdas Breñenses - Jinetes En El Cielo

Musica De Tv

			
JINETES EN EL CIELO

Parte 1

1/-------------------------------------------------------------
2/-------------------------------------------------------------
3/-------------------------------------------------------------
4/----------------------------------------------0-2-2-2-2-2----
5/--0-0--2-3-3--0--------------0-0-0-2-3-3---------------------
6/-0-------------------3-3-0-3--0------------------------------


1/-------------------------------------------------------------
2/-------------------------------------------------------------
3/------2-2-2-2------------------------------------------------
4/-2-2-2-------2-2-2-2-----------------------------------------
5/--------------------3-3-2-0---------------------0-3-3333---0-
6/---------------------------0-1-1-1-1-1-1-1-1-1-----------3---


1/-------------------------------------------------------------
2/-------------------------------------------------------------
3/-------------------------------------------------------------
4/----------------------------------------------------0-2-22202
5/--0-0-0-0-2-3-3-3-3-0--------------0-0-0-0-2-3-3-3-3---------
6/-0-------------------3-3-3-3-0-3--0--------------------------


1/-------------------------------------------------------------
2/-------------------------------------------------------------
3/------2-2-2-2------------------------------------------------
4/-2-2-2-------2-2-2-2-----------------------------------------
5/--------------------3-3-2-0-------------------0-3-3-3-3-00-0
6/---------------------------0-1-1-1-1-1-1-1-1-1------------3


1/----------------------------------------
2/----------------------------------------
3/----------------------------------------
4/----------------------------------------
5/---------------------0-3-3-3-3-3-0-0-0--
6/--0-1-1-1-1-1-1-1-1-1---------------3---

Eso es toda la primera parte! 

Bye! 

Facebook/ ferax15@hotmail.com 

Fuente: Tusacordes