a b c d e f g h i j k l m n o p q r s t u v w x y z 0-9

La Pantera Rosa

Musica De Tv

			
e||---------------------|--------------------|--------------------|
B||---------------------|--------------------|--------------------|
G||?--------------------|--------------------|-----------------0--|
D||?-----0--1--2--------|-----0--1--2--------|-----0--1--2--4-----|
A||---4-----------2-----|--4-----------2-----|--4-----------------|
E||------------------0--|-----------------0--|--------------------|

e||---------------------|--------------|------------------|
B||---------------1--0--|--------------|------------------|
G||------------0--------|-----0--4--3--|--2--0------------|
D||---1--2--4-----------|--2-----------|--------2--0--2---|
A||---------------------|--------------|------------------|
E||---------------------|--------------|------------------|

e||---------------------|--------------------|--------0-----------|
B||---------------------|--------------1--0--|-----0-----4--------|
G||------------------0--|-----------0--------|--0-----------------|
D||------0--1--2--4-----|--1--2--4-----------|--------------------|
A||---4-----------------|--------------------|--------------------|
E||---------------------|--------------------|--------------------|

e||---------------|--0-----------------|-----------------------|
B||---------------|-----3--0-----------|-----------------------|
G||---------------|-----------2--0-----|--3/2--3/2--3/2--3/2---|
D||------0--1--2--|-----------------2--|-----------------------|
A||---4-----------|--------------------|-----------------------|
E||---------------|--------------------|-----------------------|

e||------------------|----------|----------------------||
B||------------------|----------|----------------------||
G||---0--------------|--2/0-----|--0------------------?||
D||------2--0--2--2--|-------2--|-----2--0--2--2------?||
A||------------------|----------|----------------------||

Fuente: Tusacordes