a b c d e f g h i j k l m n o p q r s t u v w x y z 0-9

La Pantera Rosa

Musica De Tv

			
E-0--1--2--3----2--3-----------3----------3--1--3/
B-----------0--1-----0--1--4--3--1----3--1-------/
G---------------------------------3--2-----------/
D------------------------------------------------/
A------------------------------------------------/
E------------------------------------------------/

E-0--1--2--3----2--3----------0--1--2--3/
B-----------0--1----0--1--4--3----------/
G---------------------------------------/
D---------------------------------------/
A---------------------------------------/
E---------------------------------------/

E-----------------------------------/
B-----------------------------------/
G----------------------------3------/
D---------3--1--5--5--5--3--0--0----/
A-----3--1--------------------------/
E-3--1------------------------------/

Fuente: Tusacordes