a b c d e f g h i j k l m n o p q r s t u v w x y z 0-9

La Pantera Rosa

Musica De Tv

			
1-----77--5------/-----7777--5-------/---------12-12--10-------/
/2-5-8-------8-55-/-5-8----------8-55-/-10--13-------------13--10-10-/
3----------------/-------------------/------------------------------/
4----------------/-------------------/------------------------------/
5----------------/-------------------/------------------------------/
6----------------/-------------------/------------------------------/




1----7777--5------/-77----5------------------------------------------/
2-8----------8-55-/-----8---8-55-------------------------------------/
3-----------------/--------------------------------------------------/
4-----------------/--------------------------------------------------/
5-----------------/--------------------------------------------------/
6-----------------/--------------------------------------------------/

Fuente: tusacordes.com