a b c d e f g h i j k l m n o p q r s t u v w x y z 0-9

La Pantera Rosa

Musica De Tv

			
E---------------------------------------------
B---------------------------------------------
G---------------------------------------------
D---------------------3-2-----2-1-------------
A---------2-3-----2-3-------------5-3---------
E-2-3-4-5-----4-5---------4-5---------5-3-3-5-

E-------------------------------------------
B-------------------------------------------
G-------------------------------------------
D---------7-5-----------------------------2-
A-------------7-5-3---3-5-5-5-5-3-------2-0-
E-2-3-4-5-----------5-------------5-3-5-0---

Fuente: tusacordes.com