a b c d e f g h i j k l m n o p q r s t u v w x y z 0-9

Jackass Intro

Musica De Tv

			
Hi, am Johnny Nkoxville, Welcome to JACKASS   jeje...xD 

e------------------|
B-3---5--5/7--7----|
G-4---5--5/7----7~-|
D-0---0--0---------|    
A------------------|   
E------------------|   

e---------------------------------|-------------------------|
B-5--3--1--0-0-0--0-0-0-0--0------|-0-0-0--0-0-0-0--0--3--5-|
G-5--4--2--0-0-0--0-0-0-0--0------|-0-0-0--0-0-0-0--0--4--5-|
D----------0-0-0--0-0-0-0--0------|-0-0-0--0-0-0-0--0-------|
A----------2--------2---------1--2|-------------------------|
E---------------------------------|-------------------------|

e---------------------|--------------------------|-------------|
B-5/7-7-7-7-7-7-7-7-7-|-3-3--5/7-7-7-7-7-7-7-7-7-|-5-5--3-3--1-|
G-5/7-7-7-7-7-7-7-7-7-|-4-4--5/7-7-7-7-7-7-7-7-7-|-5-5--4-4--2-|
D---------------------|--------------------------|-------------|
A---------------------|--------------------------|-------------|
E---------------------|--------------------------|-------------|

e------------------------|-------------------------|
B-0-0-0--0-0-0-0--0------|-0-0-0--0-0-0-0--0--3--5-|
G-0-0-0--0-0-0-0--0------|-0-0-0--0-0-0-0--0--4--5-|
D-0-0-0--0-0-0-0--0------|-0-0-0--0-0-0-0--0-------|
A-2--------2--------1--2-|-------------------------|
E------------------------|-------------------------|

e---------------------|------------------------|-------------|
B-5/7-7-7-7-7-7-7-7-7-|-3-3--5/7-7-7-7-7-7-7-7-|-5-5--3-3--1-|
G-5/7-7-7-7-7-7-7-7-7-|-4-4--5/7-7-7-7-7-7-7-7-|-5-5--4-4--2-|
D---------------------|------------------------|-------------|
A---------------------|------------------------|-------------|
E---------------------|------------------------|-------------|

e------------------------|-------------------------|
B-0-0-0--0-0-0-0--0------|-0-0-0--0-0-0-0--0--3--5-|
G-0-0-0--0-0-0-0--0------|-0-0-0--0-0-0-0--0--4--5-|
D-0-0-0--0-0-0-0--0------|-0-0-0--0-0-0-0--0-------|
A-2--------2--------1--2-|-------------------------|
E------------------------|-------------------------|

e---------------------|------------------------|-------------|
B-5/7-7-7-7-7-7-7-7-7-|-3-3--5/7-7-7-7-7-7-7-7-|-5-5--3-3--1-|
G-5/7-7-7-7-7-7-7-7-7-|-4-4--5/7-7-7-7-7-7-7-7-|-5-5--4-4--2-|
D---------------------|------------------------|-------------|
A---------------------|------------------------|-------------|
E---------------------|------------------------|-------------|

e------------------------|--------------------|----|
B-0-0-0--0-0-0-0--0------|-0-0-0--0-0-0-0--0--|--0-|
G-0-0-0--0-0-0-0--0------|-0-0-0--0-0-0-0--0--|--0-|
D-0-0-0--0-0-0-0--0------|-0-0-0--0-0-0-0--0--|--0-|
A-2--------2--------1--2-|--------------------|----|
E------------------------|--------------------|----|

Fuente: Tusacordes