a b c d e f g h i j k l m n o p q r s t u v w x y z 0-9

Jackass Bass Theme

Musica De Tv

			
verse

G|-------------------------------------|
D|-------------------------------------|
A|-5-4-2-0-----------------------------|
E|----------3-3-3-3-3-2-3-2-3-3-3-3-3--|

G|-----------------------------------|
D|-----------------------------------|
A|-0-2-4-5-5-5-5-5--0-2-4-5-5-5-5-5--|
E|-----------------------------------|

G|---------------------|
D|---------------------|
A|-5-4-2-0-------------|
E|--------3---3/6--6/3-|

Fuente: Tusacordes