a b c d e f g h i j k l m n o p q r s t u v w x y z 0-9

Intro Dragonball Gt

Musica De Tv

			
E------------5-------------------------------------------5-3-------------------------
h-8-8--5-6-8---8--6-5-----5-5------5-6-5-------------------------3-5-6-5-3---5-6-5-3-
5----------------------7-------5-7--------7-5--4--2-2-5-------5------------5---------
d------------------------------------------------------------------------------------
a------------------------------------------------------------------------------------
e------------------------------------------------------------------------------------

E------------5-------------------------------------------5-3-------------------------
h-8-8--5-6-8---8--6-5-----5-5------5-6-5-------------------------3-5-6-5-3---3--1-0-1
5----------------------7-------5-7--------7-5--4--2-2-5-------5------------5---------
d------------------------------------------------------------------------------------
a------------------------------------------------------------------------------------
e------------------------------------------------------------------------------------

Fuente: tusacordes.com