a b c d e f g h i j k l m n o p q r s t u v w x y z 0-9

Intro De Pokémon

Musica De Tv

			
Hello people, here is the tab for the pokemon intro. Enjoy it



e------------------------------------------------|
B------------------------------------------------|
G------------------------------------------------|
D--7--10--12-------------------------------------|
A--5--8---10-------------------------------------|
E------------------------------------------------|

VERSE 1:

  
  I wanna be the very best


e------------------------------------------------|
B------------------------------------------------|
G------------------------------------------------|
D--10--7-----------------------------------------|
A--8---5--5--------------------------------------|
E---------3--------------------------------------|


   Like no one ever was


e------------------------------------------------|
B------------------------------------------------|
G------------------------------------------------|
D--10--5--7--8-----------------------------------|
A--8---3--5--6--------8--------------------------|
E---------------------6--------------------------|


   To catch the is my real test


e------------------------------------------------|
B------------------------------------------------|
G------------------------------------------------|
D--------------------------5-----7---------------|
A--------------------8-----3-----5---------------|
E--------------------6---------------------------|


   To train them is my cause


e------------------------------------------------|
B------------------------------------------------|
G------------------------------------------------|
D--7--10--12-------------------------------------|
A--5--8---10-------------------------------------|
E------------------------------------------------|


   i will travel accross the land



e------------------------------------------------|
B------------------------------------------------|
G------------------------------------------------|
D--10--7-----------------------------------------|
A--8---5--5--------------------------------------|
E---------3--------------------------------------|


   searching far and wide


e------------------------------------------------|
B------------------------------------------------|
G------------------------------------------------|
D--10--5--7--8-----------------------------------|
A--8---3--5--6--------8--------------------------|
E---------------------6--------------------------|


   teach pokemon to understand


e------------------------------------------------|
B------------------------------------------------|
G------------------------------------------------|
D--------------------------5-----7---------------|
A--------------------8-----3-----5---------------|
E--------------------6---------------------------|


   The power that´s inside




e------------------------------------------------|
B------------------------------------------------|
G------------------------------------------------|
D--7--10--12-------------------------------------|
A--5--8---10-------------------------------------|
E------------------------------------------------|




CHORUS:


e------------------------------------------------|
B------------------------------------------------|
G------------------------------------------------|
D?-12-12-12-12-12-12-12-12-----------------------|
A--10-10-10-10-10-10-10-10-----------------------|
E------------------------------------------------|




e------------------------------------------------|
B------------------------------------------------|
G------------------------------------------------|
D?-10-10-10-10-10-10-10-10-----------------------|
A--8--8--8--8--8--8--8--8------------------------|
E------------------------------------------------|



e------------------------------------------------|
B------------------------------------------------|
G------------------------------------------------|
D?-12-12-12-12-12-12-12-12-----------------------|
A--10-10-10-10-10-10-10-10-----------------------|
E------------------------------------------------|




e------------------------------------------------|
B------------------------------------------------|
G------------------------------------------------|
D?-14-14-14-14-14-14-14-14-----------------------|
A?-12-12-12-12-12-12-12-12-----------------------|
E------------------------------------------------|



e------------------------------------------------|
B------------------------------------------------|
G------------------------------------------------|
D?-12-12-12-12-12-12-12-12-----------------------|
A--10-10-10-10-10-10-10-10-----------------------|
E------------------------------------------------|




e------------------------------------------------|
B------------------------------------------------|
G------------------------------------------------|
D?-10-10-10-10-10-10-10-10-----------------------|
A--8--8--8--8--8--8--8--8------------------------|
E------------------------------------------------|




e------------------------------------------------|
B------------------------------------------------|
G------------------------------------------------|
D?-3----5----7-----------------------------------|
A--1----3----5-----------------------------------|
E------------------------------------------------|




e------------------------------------------------|
B------------------------------------------------|
G------------------------------------------------|
D--7--10--12-------------------------------------|
A--5--8---10-------------------------------------|
E------------------------------------------------|



e------------------------------------------------|
B------------------------------------------------|
G------------------------------------------------|
D?-12-12-12-12-12-12-12-12-----------------------|
A--10-10-10-10-10-10-10-10-----------------------|
E------------------------------------------------|




e------------------------------------------------|
B------------------------------------------------|
G------------------------------------------------|
D?-10-10-10-10-10-10-10-10-----------------------|
A--8--8--8--8--8--8--8--8------------------------|
E------------------------------------------------|



e------------------------------------------------|
B------------------------------------------------|
G------------------------------------------------|
D?-12-12-12-12-12-12-12-12-----------------------|
A--10-10-10-10-10-10-10-10-----------------------|
E------------------------------------------------|




e------------------------------------------------|
B------------------------------------------------|
G------------------------------------------------|
D?-14-14-14-14-14-14-14-14-----------------------|
A?-12-12-12-12-12-12-12-12-----------------------|
E------------------------------------------------|



e------------------------------------------------|
B------------------------------------------------|
G------------------------------------------------|
D?-12-12-12-12-12-12-12-12-----------------------|
A--10-10-10-10-10-10-10-10-----------------------|
E------------------------------------------------|




e------------------------------------------------|
B------------------------------------------------|
G------------------------------------------------|
D?-10-10-10-10-10-10-10-10-----------------------|
A--8--8--8--8--8--8--8--8------------------------|
E------------------------------------------------|




e------------------------------------------------|
B------------------------------------------------|
G------------------------------------------------|
D?-3----5----7-----------------------------------|
A--1----3----5-----------------------------------|
E------------------------------------------------|




e---9----9/12----12/14---------------------------|
B------------------------------------------------|
G------------------------------------------------|
D?-----------------------------------------------|
A------------------------------------------------|
E------------------------------------------------|



    GOTTA CATCH´EM ALL  YEAH


e------------------------------------------------|
B------------------------------------------------|
G---17b---19--17--15--17-------------------------|
D?------------------------17---------------------|
A------------------------------------------------|
E------------------------------------------------|


VERSE 2:


   Every challenge along the way

e------------------------------------------------|
B------------------------------------------------|
G------------------------------------------------|
D--10--7-----------------------------------------|
A--8---5--5--------------------------------------|
E---------3--------------------------------------|


   With courage i will face


e------------------------------------------------|
B------------------------------------------------|
G------------------------------------------------|
D--10--5--7--8-----------------------------------|
A--8---3--5--6--------8--------------------------|
E---------------------6--------------------------|


   I will battle every day


e------------------------------------------------|
B------------------------------------------------|
G------------------------------------------------|
D--------------------------5-----7---------------|
A--------------------8-----3-----5---------------|
E--------------------6---------------------------|


   To claim my rightful place

e------------------------------------------------|
B------------------------------------------------|
G------------------------------------------------|
D--7--10--12-------------------------------------|
A--5--8---10-------------------------------------|
E------------------------------------------------|


   Come with me the time is right



e------------------------------------------------|
B------------------------------------------------|
G------------------------------------------------|
D--10--7-----------------------------------------|
A--8---5--5--------------------------------------|
E---------3--------------------------------------|


   There's no better team


e------------------------------------------------|
B------------------------------------------------|
G------------------------------------------------|
D--10--5--7--8-----------------------------------|
A--8---3--5--6--------8--------------------------|
E---------------------6--------------------------|


   Arm in arm we'll win the fight


e------------------------------------------------|
B------------------------------------------------|
G------------------------------------------------|
D--------------------------5-----7---------------|
A--------------------8-----3-----5---------------|
E--------------------6---------------------------|


   It's always been our dream


CHORUS:


e------------------------------------------------|
B------------------------------------------------|
G------------------------------------------------|
D?-12-12-12-12-12-12-12-12-----------------------|
A--10-10-10-10-10-10-10-10-----------------------|
E------------------------------------------------|




e------------------------------------------------|
B------------------------------------------------|
G------------------------------------------------|
D?-10-10-10-10-10-10-10-10-----------------------|
A--8--8--8--8--8--8--8--8------------------------|
E------------------------------------------------|



e------------------------------------------------|
B------------------------------------------------|
G------------------------------------------------|
D?-12-12-12-12-12-12-12-12-----------------------|
A--10-10-10-10-10-10-10-10-----------------------|
E------------------------------------------------|




e------------------------------------------------|
B------------------------------------------------|
G------------------------------------------------|
D?-14-14-14-14-14-14-14-14-----------------------|
A?-12-12-12-12-12-12-12-12-----------------------|
E------------------------------------------------|



e------------------------------------------------|
B------------------------------------------------|
G------------------------------------------------|
D?-12-12-12-12-12-12-12-12-----------------------|
A--10-10-10-10-10-10-10-10-----------------------|
E------------------------------------------------|




e------------------------------------------------|
B------------------------------------------------|
G------------------------------------------------|
D?-10-10-10-10-10-10-10-10-----------------------|
A--8--8--8--8--8--8--8--8------------------------|
E------------------------------------------------|




e------------------------------------------------|
B------------------------------------------------|
G------------------------------------------------|
D?-3----5----7-----------------------------------|
A--1----3----5-----------------------------------|
E------------------------------------------------|




e------------------------------------------------|
B------------------------------------------------|
G------------------------------------------------|
D--7--10--12-------------------------------------|
A--5--8---10-------------------------------------|
E------------------------------------------------|



e------------------------------------------------|
B------------------------------------------------|
G------------------------------------------------|
D?-12-12-12-12-12-12-12-12-----------------------|
A--10-10-10-10-10-10-10-10-----------------------|
E------------------------------------------------|




e------------------------------------------------|
B------------------------------------------------|
G------------------------------------------------|
D?-10-10-10-10-10-10-10-10-----------------------|
A--8--8--8--8--8--8--8--8------------------------|
E------------------------------------------------|



e------------------------------------------------|
B------------------------------------------------|
G------------------------------------------------|
D?-12-12-12-12-12-12-12-12-----------------------|
A--10-10-10-10-10-10-10-10-----------------------|
E------------------------------------------------|




e------------------------------------------------|
B------------------------------------------------|
G------------------------------------------------|
D?-14-14-14-14-14-14-14-14-----------------------|
A?-12-12-12-12-12-12-12-12-----------------------|
E------------------------------------------------|



e------------------------------------------------|
B------------------------------------------------|
G------------------------------------------------|
D?-12-12-12-12-12-12-12-12-----------------------|
A--10-10-10-10-10-10-10-10-----------------------|
E------------------------------------------------|




e------------------------------------------------|
B------------------------------------------------|
G------------------------------------------------|
D?-10-10-10-10-10-10-10-10-----------------------|
A--8--8--8--8--8--8--8--8------------------------|
E------------------------------------------------|




e------------------------------------------------|
B------------------------------------------------|
G------------------------------------------------|
D?-3----5----7-----------------------------------|
A--1----3----5-----------------------------------|
E------------------------------------------------|




e---9----9/12----12/14---------------------------|
B------------------------------------------------|
G------------------------------------------------|
D?-----------------------------------------------|
A------------------------------------------------|
E------------------------------------------------|



BRIDGE:



e------------------------------------------------|
B------------------------------------------------|
G------------------------------------------------|
D?-12---10-----12------10---10-------------------|
A--10---8------10------8----8--------------------|
E------------------------------------------------|



e------------------------------------------------|
B------------------------------------------------|
G------------------------------------------------|
D?-12---10-----12------10---10-------------------|
A--10---8------10------8----8--------------------|
E------------------------------------------------|


e------------------------------------------------|
B------------------------------------------------|
G------------------------------------------------|
D?-12---10-----12------10---10-------------------|
A--10---8------10------8----8--------------------|
E------------------------------------------------|



e------------------------------------------------|
B------------------------------------------------|
G------------------------------------------------|
D?-12---10-----12------10---10-------------------|
A--10---8------10------8----8--------------------|
E------------------------------------------------|



e------------------------------------------------|
B------------------------------------------------|
G------------------------------------------------|
D?-14---12-----14------12---12-------------------|
A--12---10-----12------10---10-------------------|
E------------------------------------------------|



e------------------------------------------------|
B------------------------------------------------|
G------------------------------------------------|
D?-14---12-----14------12---12-------------------|
A--12---10-----12------10---10-------------------|
E------------------------------------------------|



e------------------------------------------------|
B------------------------------------------------|
G------------------------------------------------|
D?-14---12-----14------12---12-------------------|
A--12---10-----12------10---10-------------------|
E------------------------------------------------|


SOLO:

e------------------------------------------------|
B------------------------------------------------|
G---------------15--14---15----------------------|
D?--15--13--15---------------17------------------|
A------------------------------------------------|
E------------------------------------------------|




e------------------------------------------------|
B------------------------------------------------|
G-----17b--19--17--15--17------------------------|
D?-------------------------17--------------------|
A------------------------------------------------|
E------------------------------------------------|




e------------------------------------------------|
B------------------------------------------------|
G------------------------------------------------|
D?-----------------------17----------------------|
A----15-15-15-15---------------------------------|
E--------------------18--------------------------|





e------------------------------------------------|
B-----------13h15---16b---18--16--15-------------|
G----12h14---------------------------15----------|
D?--------------------------------------15-------|
A------------------------------------------------|
E------------------------------------------------|



e------------------------------------------------|
B-----------17--18--17b--------------------------|
G----15-17---------------------------------------|
D?-----------------------------------------------|
A------------------------------------------------|
E------------------------------------------------|



e------------------------------------------------|
B-----------17--18--17b--------------------------|
G----15-17---------------------------------------|
D?-----------------------------------------------|
A------------------------------------------------|
E------------------------------------------------|



e-----17h18--17b--21b---21b---21b----------------|
B------------------------------------------------|
G------------------------------------------------|
D?-----------------------------------------------|
A------------------------------------------------|
E------------------------------------------------|



outro:


e------------------------------------------------|
B------------------------------------------------|
G------------------------------------------------|
D?-12-12-12-12-12-12-12-12-----------------------|
A--10-10-10-10-10-10-10-10-----------------------|
E------------------------------------------------|




e------------------------------------------------|
B------------------------------------------------|
G------------------------------------------------|
D?-10-10-10-10-10-10-10-10-----------------------|
A--8--8--8--8--8--8--8--8------------------------|
E------------------------------------------------|



e------------------------------------------------|
B------------------------------------------------|
G------------------------------------------------|
D?-12-12-12-12-12-12-12-12-----------------------|
A--10-10-10-10-10-10-10-10-----------------------|
E------------------------------------------------|




e------------------------------------------------|
B------------------------------------------------|
G------------------------------------------------|
D?-14-14-14-14-14-14-14-14-----------------------|
A?-12-12-12-12-12-12-12-12-----------------------|
E------------------------------------------------|



e------------------------------------------------|
B------------------------------------------------|
G------------------------------------------------|
D?-12-12-12-12-12-12-12-12-----------------------|
A--10-10-10-10-10-10-10-10-----------------------|
E------------------------------------------------|




e------------------------------------------------|
B------------------------------------------------|
G------------------------------------------------|
D?-10-10-10-10-10-10-10-10-----------------------|
A--8--8--8--8--8--8--8--8------------------------|
E------------------------------------------------|




e------------------------------------------------|
B------------------------------------------------|
G------------------------------------------------|
D?-3----5----7-----------------------------------|
A--1----3----5-----------------------------------|
E------------------------------------------------|




e------------------------------------------------|
B------------------------------------------------|
G------------------------------------------------|
D--7--10--12-------------------------------------|
A--5--8---10-------------------------------------|
E------------------------------------------------|



e------------------------------------------------|
B------------------------------------------------|
G------------------------------------------------|
D?-12-12-12-12-12-12-12-12-----------------------|
A--10-10-10-10-10-10-10-10-----------------------|
E------------------------------------------------|




e------------------------------------------------|
B------------------------------------------------|
G------------------------------------------------|
D?-10-10-10-10-10-10-10-10-----------------------|
A--8--8--8--8--8--8--8--8------------------------|
E------------------------------------------------|



e------------------------------------------------|
B------------------------------------------------|
G------------------------------------------------|
D?-12-12-12-12-12-12-12-12-----------------------|
A--10-10-10-10-10-10-10-10-----------------------|
E------------------------------------------------|




e------------------------------------------------|
B------------------------------------------------|
G------------------------------------------------|
D?-14-14-14-14-14-14-14-14-----------------------|
A?-12-12-12-12-12-12-12-12-----------------------|
E------------------------------------------------|



e------------------------------------------------|
B------------------------------------------------|
G------------------------------------------------|
D?-12-12-12-12-12-12-12-12-----------------------|
A--10-10-10-10-10-10-10-10-----------------------|
E------------------------------------------------|




e------------------------------------------------|
B------------------------------------------------|
G------------------------------------------------|
D?-10-10-10-10-10-10-10-10-----------------------|
A--8--8--8--8--8--8--8--8------------------------|
E------------------------------------------------|




e------------------------------------------------|
B------------------------------------------------|
G------------------------------------------------|
D?-3----5----7-----------------------------------|
A--1----3----5-----------------------------------|
E------------------------------------------------|




e---9----9/12------------------------------------|
B------------------------------------------------|
G------------------------------------------------|
D?-----------------------------------------------|
A------------------------------------------------|
E------------------------------------------------|



e------------------------------------------------|
B------------------------------------------------|
G------------------------------------------------|
D--7--10--12-------------------------------------|
A--5--8---10-------------------------------------|
E------------------------------------------------|

Fuente: Tusacordes