a b c d e f g h i j k l m n o p q r s t u v w x y z 0-9

Indiana Jones

Musica De Tv

			
1---------------------1---------0----------0-1--
2------1------------0-----0-1-3---------1-3---0-
3-----0----------0-2-----2-------------0-------0
4--2-3----0-2-3--------------------2-3----------

1--0---0---0------------------------------------
2---3---3---3-----------------------------------
3----0---0---0----------------------------------
4-----------------------------------------------

1---------------------1---------0----------0-1--
2------1------------0-----0-1-3---------1-3---0-
3-----0----------0-2-----2-------------0-------0
4--2-3----0-2-3--------------------2-3----------

1--0---0---0-------------------------------------
2---3---3---3------------------------------------
3----0---0---0-----------------------------------
4------------------------------------------------

Fuente: Tusacordes