a b c d e f g h i j k l m n o p q r s t u v w x y z 0-9

Hora De Aventura (opening)

Musica De Tv

			
1------------------------------------------------------------------
2-----1-1-1-1-1---o-o----------------------------------------------
3--o-------------------2-0-2-0-------------------------------------
4-------------------------------3-3--2-0-------3-2-0---------------
5-----------------------------------------3-----------3------------
6------------------------------------------------------------------



1------------------------------------------------------------------
2-----1-1-1-1-1---o-o----------------------------------------------
3--o-------------------2-0-2-0------------0------------------------
4-------------------------------3-3-3-3-------2-0-2-0--------------
5-----------------------------------------------------3------------
6------------------------------------------------------------------Fuente: Tus acordes