a b c d e f g h i j k l m n o p q r s t u v w x y z 0-9

Hermanos Vazques

Musica De Tv

			
1--------------------------------------------------------------
2--------------------------------------------------------------
3--------------------------------------------------------------
4--------------------------------------------------------------
5--0-0-0-2-3-3-3-0---------------------------------------------
6--0---------------3-3-3-0-3-----------------------------------

1--------------------------------------------------------------
2--------------------------------------------------------------
3----------------------------------2-2-2-0---------------------
4-----------------2-2-2-0-2----0-2--------2-2-2-0--------------
5--0-0-0-2-3-3-3-0--------------------------------3-3-3-0-3----
6--0-----------------------------------------------------------

Fuente: tusacordes.com