a b c d e f g h i j k l m n o p q r s t u v w x y z 0-9

Hermanos Vazques

Musica De Tv

			
1)------------------------------------------------------------
2)------------------------------------------------------------
3)------------------------------------------------------------
4)------------------------------------------------4-2-2-2----2
5)----0-0-0-2-3-3-3-0--------------0-0-0-2-3-3-3-----------3--
6)--0------------------3-3-3-0-3-0----------------------------

1)------------------------------------------------------------
2)------------------------------------------------------------
3)-------2-2-2-2----------------------------------------------
4)--2-2-----------2-2-2-2----0--------------------------------
5)-------------------------3---------------3-3-3-0-------0----
6)------------------------------1-1-1-1-1-----------4-0-------

Fuente: tusacordes.com