a b c d e f g h i j k l m n o p q r s t u v w x y z 0-9

Harry Potter

Musica De Tv

			
E|----0-3-2-0-7-5-2--0--3-2-1---------------
B|---0--------------0------3-0--------------
G|------------------------------------------
D|------------------------------------------
A|------------------------------------------
E|------------------------------------------


E|----0-3-2-0-7-10-9-8--5-8-7-6--3-0--------
B|---0--------------------------0-----------
G|------------------------------------------
D|------------------------------------------
A|------------------------------------------
E|------------------------------------------


 E-------------7----------------------------
 B-------8-7-----10---7--------8-7---6------
 G-----9-----9---------------9-----7--------
 D---9---------------------------------9----
 A------------------------------------------
 E------------------------------------------


 E-------------7-10--9-8---8--7-6-----------
 B-------8-7-------------9--------7--8------
 G-----9-----9-------------------------9----
 D---9--------------------------------------
 A------------------------------------------
 E------------------------------------------


 E-----7---7---8--7-6--------7-6------7----
 B---8---8---8----------7-8----------------
 G-----------------------------------------
 D-------------------------------8--9------
 A-----------------------------------------
 E-----------------------------------------


 E-----7---7----10--9-8---8--7-6-----------
 B---8---8---8----------9--------7--8------
 G------------------------------------9----
 D-----------------------------------------
 A-----------------------------------------
 E-----------------------------------------Fuente: Tus acordes