a b c d e f g h i j k l m n o p q r s t u v w x y z 0-9

Harry Potter

Musica De Tv

			
Esta es la mejor tablatura de Harry Potter, es la
que mas se parece, espero les guste ok..........

E|--------0--------------------|
B|---1-0----3-0--1-0-----------|
G|--2---2-------2----1-3-------|
D|-2--------------------2------|
A|-----------------------------|
E|-----------------------------|

E|--------0-3-2-1-0-------------|
B|---1-0---------2-1------------|
G|--2---2-----------2-1---------|
D|-2-----------------1-2--------|
A|------------------------------|
E|------------------------------|

E|-0-0-1-0---0--------------|
B|1-1-1---4-4--1--1---------|
G|--------------2--2--------|
D|---------------1----------|
A|--------------------------|
E|--------------------------|

E|-0-0-3-2-1-0--------|
B|1-1-1-----2-1--1----|
G|-------------2--2---|
D|--------------1-----|
A|--------------------|
E|--------------------|

Fuente: Tusacordes