a b c d e f g h i j k l m n o p q r s t u v w x y z 0-9

Harry Potter

Musica De Tv

			
Bueno este es mi primer post espero no me manden a la mier.....

bue yo saque esta version de harry potter en una sola cuerda la cual uno puede tambien hacerla en cualquiera de las 6 cuerdas e incluso en RIFF


1]-0-5--8--7-5---12-10-7---5-8-7-3-7-0--]
2]--------------------------------------]
3]--------------------------------------]
4]--------------------------------------]
5]--------------------------------------]
6]--------------------------------------]


1]--0-5-7-8-5-12-15-13-14-9-13-12-11-0-7-5---]
2]-------------------------------------------]
3]-------------------------------------------]
4]-------------------------------------------]
5]-------------------------------------------]
6]-------------------------------------------]


1]---12-8-12-8-13-12-11--8-12-8-12-8-12------]
2]-------------------------------------------]
3]-------------------------------------------]
4]-------------------------------------------]
5]-------------------------------------------]
6]-------------------------------------------]

1]--12-8-12-8-13-12-11---12-8-0-7-5----------]
2]-------------------------------------------]
3]-------------------------------------------]
4]-------------------------------------------]
5]-------------------------------------------]
6]-------------------------------------------]

espero sus quejas XD digo sus opiniones XD

en todo caso pueden provar esto con distorcion y RIFF osea tocarlo en la ultima cuerda pero con acompañamiento de la penultima dos espacios mas adelante 

EJ: para los nuevos



1]--------------------------------------]
2]--------------------------------------]
3]--------------------------------------]
4]--------------------------------------]
5]-2-7-11--10-7--14-12-9---7-10-9-5-9-2-]
6]-0-5--8--7--5--12-10-7---5-8--7-3-7-0-]

notaran que las notas de la ultima cuerda o de la cuerda 6 son las originales que usavamos en la 1 y las de la 5 son las de acompañamiento para el riff

Fuente: Tusacordes