a b c d e f g h i j k l m n o p q r s t u v w x y z 0-9

Harry Potter

Musica De Tv

			
aqui les traigo la adictiva cancion llamada de HARRY POTTER

/--------------------------------------/
/--------------------------------------/
/----7---7---8--7--6------7--6---------/
/--8---8---8---------7--8-------8--9--6/
/--------------------------------------/
/--------------------------------------/

/---------------------------------------------------
/---------------------------------------------------
/----7---7---10--9--8---8--7--6------7--6-----------
/--8---8---8----------8---------7--8------8--8--9--6
/---------------------------------------------------
/---------------------------------------------------

Fuente: Tusacordes