a b c d e f g h i j k l m n o p q r s t u v w x y z 0-9

Harry Potter (john Williams)

Musica De Tv

			
Harry Potter Theme  
 
E-------0--3--2--0--7--5--3--0--------0--3--2--0--2--------
B----0-----------------------------0-----------------0-----
G----------------------------------------------------------
D----------------------------------------------------------
A----------------------------------------------------------
E----------------------------------------------------------

E---0--3--2--0--7--10--9--8--5--8--7--6---3--0--3--7--3--7
B-0-------------------------------------0-----------------
G----------------------------------------------------------
D----------------------------------------------------------
A----------------------------------------------------------
E----------------------------------------------------------

H
E----3--8--7--6----2--3---7--6----------7---3--7--3--7----
B------------------------------------0--------------------
G---------------------------------3------------------------
D----------------------------------------------------------
A----------------------------------------------------------
E----------------------------------------------------------


E-----3---10--9--8--5--8--7--6---0--3----------------------
B----------------------------------------------------------
G----------------------------------------------------------
D----------------------------------------------------------
A----------------------------------------------------------
E----------------------------------------------------------

Fuente: tusacordes.com