a b c d e f g h i j k l m n o p q r s t u v w x y z 0-9

Happy Tree Friends

Musica De Tv

			
Guitarra 1
e|---------------------------------------|
B|---------------------------------------|
g|---------------------------------------|
D|---------------------------------------|
A|-0---0---0---0-1-2-2-------------------|
E|---0---0---0---------3-0-3-0-3-0-3-3-4-|

Guitarra 2Riff 1
e|------------|
B|-55---555-7-|
G|----6-------| x 4
D|------------|
A|------------|
E|------------|

Guitarra 2 Riff 2
e|---------------------------------------------|
B|-5-5-55-3-2-55-55-3-2---3-3-33-2-0-33-33-2-0-|
G|---------------------------------------------|
D|---------------------------------------------| x 4
A|---------------------------------------------|
E|---------------------------------------------|

the last time you play it like this:
e--------------------------------------------------------------
B-5-5-55-3-2-55-55-3-2---3-3-33-2-0-33-33-2-0-3/5*let it ring--
G--------------------------------------------------------------
D--------------------------------------------------------------
A--------------------------------------------------------------
E--------------------------------------------------------------


| /  slide up
|   slide down
| h  hammer-on
| p  pull-off
| ~  vibrato
| +  harmonic
| x  Mute note
===============================================================================

Fuente: tusacordes.com