a b c d e f g h i j k l m n o p q r s t u v w x y z 0-9

Halloween

Musica De Tv

			
1-9----9----9--10-   x4 
2--7-7--7-7--7---7

1-8----8----8--9--    x2
2--6-6--6-6--6--6-

1-9----9----9--10-    x2 
2--7-7--7-7--7---7

1-7----7----7--8--    x2
2--5-5--5-5--5--5-

1-9----9----9--10-    x2 
2--7-7--7-7--7---7

1-6----6----6---7-     x2
2--4-4--4-4--4---4

1-9----9----9--10-    x2 
2--7-7--7-7--7---7

y la repiten las veces que quieran :)Fuente: Tus acordes