a b c d e f g h i j k l m n o p q r s t u v w x y z 0-9

Eye Of The Tiger (ojo De Tigre)

Musica De Tv

			
e|---------------------------|
b|---------------------------|
g|---------------------------|
D|---------------------------|
A|---------------------------|
E|7---7-5-7--7-5-7--7-5-3--5-|

e|---------------------------|
b|---------------------------|
g|---------------------------|
D|9---9-7-9--9-7-9--9-7-5--7-|
A|9---9-7-9--9-7-9--9-7-5--7-|
E|7---7-5-7--7-5-7--7-5-3--5-|

estas partes se deben tocar muy rapido...
         |            |           |
         v            v           v
e|7---7-7-7-5-7---7-7-7-5-7---7-7-7-5-3-5-7-|
b|7---7-7-7-5-7---7-7-7-5-7---7-7-7-5-3-5-7-|
g|7---7-7-7-5-7---7-7-7-5-7---7-7-7-5-3-5-7-|
D|9---9-9-9-7-9---9-9-9-7-9---9-9-9-7-5-7-9-|
A|9---9-9-9-7-9---9-9-9-7-9---9-9-9-7-5-7-9-|
E|7---7-7-7-5-7---7-7-7-5-7---7-7-7-5-3-5-7-|

Fuente: tusacordes.com