a b c d e f g h i j k l m n o p q r s t u v w x y z 0-9

Expedientes X

Musica De Tv

			
Em    A       D5     G
e ------------------------------------------------
B ------------------------------------------------
G ------------------------------------------------
D ------------------------------------------------
A -----2--0---2----5---2----------2--0---2---7---2
E ---0--------------------------0-----------------


e-------------------------------------------------
B-------------------------------------------------
G-------------------------------------------------
D---5-4-2---0---2-----------5-4-2---0-------------
A------------------2-------------------2----------
E-------------------------------------------------

Fuente: tusacordes.com