a b c d e f g h i j k l m n o p q r s t u v w x y z 0-9

Estrellita

Musica De Tv

			

 
 
      e----------0-0-----------------------------------
      B------3-3-----3---1-1---0-0---------------------
      G--0-0-----------------------2-2--0--------------
      D------------------------------------------------
      A------------------------------------------------
      E------------------------------------------------

      e------------------------------------------------
      B--3-3--1-1--0-0-----3-3--1-1--0-0---------------
      G----------------2------------------2------------
      D------------------------------------------------
      A------------------------------------------------
      E------------------------------------------------

      e-----------0-0----------------------------------
      B-------3-3-----3---1-1--0-0---------------------
      G--0-0-----------------------2-2--0--------------
      D------------------------------------------------
      A------------------------------------------------
      E------------------------------------------------

Fuente: tusacordes.com