a b c d e f g h i j k l m n o p q r s t u v w x y z 0-9

El Padrino

Musica De Tv

			
Quiero aclarar que esta cancion no se la robe a nadie.
La primer parte puede estar en algun lado porque todas las versiones que vi empiezan asi pero todo lo demas lo desarrolle yo.
bueno.es la primera vez que hago una cancion y we aca esta el padrino.Lo pueden tocar con o sin bajos


1.---0--3--2--0--3--0--2--0-------------------0--3--2--0--3--0---
2.-0--------------------------1--3--0------0---------------------
3.---------------------------------------------------------------
4.---------------------------------------------------------------
5.---------------------------------------------------------------
6.---------0-----------0------------0---0-----------0------------


1.--2--0------------------0--2-----------0------------------------
2.---------0-----------1-----------1--4-----------3--1--0--3--1--1
3.------------3--2--2-----------2--------------0------------------
4.------------------------------------------2---------------------
5.---------------------0-----------0-----------------0------------
6.--0------------------------------------0-----------------------2

.....................Si quieren tocan esto de aca abajo...........
1.-----------0------|--0--0--------2--0---------------------------
2.--0--0--4---------|--------4--3--------1--0--0--3-0----1--0-----
3.------------------|----------------------------------2---2------
4.------------------|---------------------------------------------
5.------------------|---------------------------------------------
6.-----------0--0---|---------------------------------------------


Eso es todo chicos espero que les salga.Recuerden que con o sin bajos suena bien...Saludos y a practicar xD.Fuente: Tus acordes