a b c d e f g h i j k l m n o p q r s t u v w x y z 0-9

El Padrino

Musica De Tv

			
spero que les guste esta super...

escrito por Nicolás Lezcano Blasco...

e---0-3-2-0-3-0-2-0---------0-3-2-0-3-0-2-0-----------0-2------0
B-0-----------------1-3-0-0-----------------0-------1-------1-4-
G---------------------------------------------3-2-2-------3-----
D---------------------------------------------------------------
A---------------------------------------------------------------E---------------------------------------------------------------

e-3-7-10-8-7-10-8-8-7-2-3-0-0-----2-----------------------------
B-----------------------------4-3---0-1-3-0-0-3-0-----1---0-----
G-------------------------------------------------2-2---2------- 
D---------------------------------------------------------------
A---------------------------------------------------------------
E---------------------------------------------------------------
2veces 

e--0-3-2-0-3-0-2-0--------0-3-2-0-3-0-2-0---------0-2-5-3-2-3-2-0-
B-0---------------1-3-0-0----------------0-------1--------------
G------------------------------------------3-2-2----------------
D---------------------------------------------------------------
A---------------------------------------------------------------
E---------------------------------------------------------------

e-3-7-10-8-7-10-8-8-7-2-3-0/3-7-10-8-7-10-8-8-7-2-3-0-Em--------
B---------------------------------------------------------------
G---------------------------------------------------------------
D---------------------------------------------------------------
A---------------------------------------------------------------
E---------------------------------------------------------------


Fuente: tusacordes.com