a b c d e f g h i j k l m n o p q r s t u v w x y z 0-9

El Leon Duerme Esta Noche

Musica De Tv

			
1ª|------0------0-1-0-------------------|
2ª|--1-3---3----------3-1-1-3-----------|
3ª|----------------------------0-0-0-0--|
4ª|-------------------------------------|
5ª|-------------------------------------|
6ª|-------------------------------------|

|---3-0---0--3-1-0-------------------|
|-------3----------3-1-1-3-----------|
|---------------------------0-0-0-0--|
|------------------------------------|
|------------------------------------|
|------------------------------------|


1ª|------0-----0-1-0-------0-----0----|
2ª|--1-3---3---------3-1-1---3-1---3--|
3ª|-----------------------------------|
4ª|-----------------------------------|
5ª|-----------------------------------|
6ª|-----------------------------------|

|--3-0---0---3-1-0--------0-------0----|
|------3------------3-1-1---3?-1----3--|
|--------------------------------------|
|--------------------------------------|
|--------------------------------------|
|--------------------------------------|

Fuente: Tusacordes