a b c d e f g h i j k l m n o p q r s t u v w x y z 0-9

El Inspector Clouseau

Musica De Tv

			
primero empieza con el bajo

1-----------------------------------------------
2-----------------------------------------------
3-----------------------------------------------
4-----------------------------------------------
5----------5-5-4-4-3-3-2-2-1-1-0-0--------------
6-0-0-3-3--------------------------------------- 

y despues la guitarra:

1---7-6--5-3------------------------------------
2--5---------5-3-5--5-3-5--5-3-5-3--------------
3-4-------------------------------4-2-4---------
4-----------------------------------------------
5-----------------------------------------------
6----------------------------------------------- 

y asi sucesivamente

recomiendo que se toque de a dos

primero con el bajo y despues de la 5 cuerda 5 traste dos veces arrancar con la guitarra mientras el bajo sigue

Fuente: tusacordes.com