a b c d e f g h i j k l m n o p q r s t u v w x y z 0-9

El Chavo Del Ocho

Musica De Tv

			
esta es la rolita que nos gusta a muchas personas
que es la de una serie de tv de mexico



1-3-0-0-0--3-0-0-0----12-10-8-7-5-3-1-0-1-3-/
2-------------------------------------------/
3-------------------------------------------/

1-3-0-0-0--3-0-0-0----12-10-8-7-5-3-4-7-----/
2-------------------------------------------/
3-------------------------------------------/

1-7-5-5-5--10-7-7-7-10-7-10-7--12-8-8-8-----/
2-------------------------------------------/
3-------------------------------------------/

1-3-0-0-0--3-0-0-0----12-10-8-7-5-3-1-0-1-3-/
2-------------------------------------------/
3-------------------------------------------/


dudas o comentarios con mi correo

esteban1_0911@hotmail.com

Fuente: Tusacordes