a b c d e f g h i j k l m n o p q r s t u v w x y z 0-9

El Chavo Del Ocho

Musica De Tv

			
EL CHAVO DEL OCHO


e|-----------------0---------------------------------------
B|-------------------3-1-0---------------------------------
G|-0--------0--------------2-0-------0---------------------
D|---2-2-2----2-2--------------3-2-3-----------------------
A|---------------------------------------------------------
E|---------------------------------------------------------

e|-----------------0---------------------------------------
B|-------------------3-1-0----------0-1--------------------
G|-0--------0--------------2-0-----------------------------
D|---2-2-2----2-2------------------------------------------
A|---------------------------------------------------------
E|---------------------------------------------------------

e|---------------------------------------------------------
B|-1---------1---1----3-0-3-0------------------------------
G|---2-2-2-----2---2---------------------------------------
D|---------------------------------------------------------
A|---------------------------------------------------------
E|---------------------------------------------------------

e|-----------------0---------------------------------------
B|-------------------3-1-0----------0-1--------------------
G|-0--------0--------------2-0-----------------------------
D|---2-2-2----2-2------------------------------------------
A|---------------------------------------------------------
E|---------------------------------------------------------

Fuente: tusacordes.com