a b c d e f g h i j k l m n o p q r s t u v w x y z 0-9

El Chavo Del Ocho - Primera Parte

Musica De Tv

			
E----------------------12-10-8----------------------------
b-------------------------------8-6-5-6-8-----------------
g--12-9-9-9--12-9-9-9-------------------------------------
d---------------------------------------------------------
a---------------------------------------------------------
e---------------------------------------------------------

E----------------------12-10-8----------------------------
b-------------------------------8-9-10-12-13--------------
g--12-9-9-9--12-9-9-9-------------------------------------
d---------------------------------------------------------
a---------------------------------------------------------
e---------------------------------------------------------

E--12------------------------12------12-------------------
b-----12-12-12--13-10-10-10------12------12-13-10-10-10---
g---------------------------------------------------------
d---------------------------------------------------------
a---------------------------------------------------------
e---------------------------------------------------------

E--10---------------------10------10----------------------
b-----10-10-10--12-8-8-8------10------10-12-9-9-9---------
g---------------------------------------------------------
d---------------------------------------------------------
a---------------------------------------------------------
e---------------------------------------------------------

E---------------------------------------------------------
b---------------------------------------------------------
g--5-10-9-10-7-9-5-3-3-2-2-7-7-5--------------------------
d---------------------------------------------------------
a---------------------------------------------------------
e---------------------------------------------------------

E---------------------------------------------------------
b---------------------------------------------------------
g--5-10-9-10-7-9-5-3-3-2-2-7-9-10-------------------------
d---------------------------------------------------------
a---------------------------------------------------------
e---------------------------------------------------------

Fuente: tusacordes.com