a b c d e f g h i j k l m n o p q r s t u v w x y z 0-9

El Chavo Del 8

Musica De Tv

A
B
C
			
La musica de entrada del programa corresponde al artista
Jean Jacques Perrey y se llama "the elephant never Forgets"
de su disco "Moog Indigo".

El tema "The elehants never forgets" fue basado en la marcha
turca de las Ruinas de Atenas grabada el 9 de abril de 1920
y el autor es L.V. Beethoven.

A

1e--0-------0------9-7----------------0--------|
2b----2-2-2---2-2------10-9-7-------3----------|
3g----------------------------9-7-6------------|
4D-------------------0-------------------------|
5A--0------------------------------------------|
6E------4---2---0-------------0---5-4-2--0h2h4-|

|-0-------0------9-7------------------
|---2-2-2---2-2------10-9-7---9-10----
|---------------------------9---------
|------------------0------------------
|-0-----------------------------0-----
|-----4---2---0-------------0------T5-

B

1e--5-0-0-0-7-----7---7---9----9----
2b------------9-9---9---9---10---10-
3g----------------------------------
4D------4-------6-----6-------------
5A------------------------0----7----
6E--2-------0-----0-----------------

A

C


1e-9------------------------9--9-9-7---7---------------|
2b---9-9-9-10-------9-10-12----------9---7-10---7-9-10-|
3g------------11-11---------------------------9--------|
4D-----------------------------------------------------|
5A-----8---9----------------11-------9-----------------|
6E-9-------------9---------------9------------0--------|

|-7--------------------7-7-7------------
|---7-7-7-9-----7-9-10-------10-9-7-----
|-----------9-9---------------------9---
|---------------------------------------
|-----6---7------------9--------7-------
|-7-----------7------------7------7-0---

Fuente: Tusacordes