a b c d e f g h i j k l m n o p q r s t u v w x y z 0-9

El Chavo Del 8

Musica De Tv

			
hola espero que les guste

1)-------------------7--5----------------------------------
2)-------------------------8-7-----------------------------
3)-7--------7-------------------7--5-4-5-7-----------------
4)----9-9-9----9-9-----------------------------------------
5)---------------------------------------------------------
6)---------------------------------------------------------

1)-------------------7--5------------------------------------------
2)-------------------------8-7------4-5--8--5-5-5--10-7-7-7-10-7---
3)-7--------7-------------------7----------------------------------
4)----9-9-9----9-9-------------------------------------------------
5)-----------------------------------------------------------------
6)-----------------------------------------------------------------

1)---------------------------
2)-10-7-10-7--11-8-8---------
3)---------------------------
4)---------------------------
5)---------------------------
6)---------------------------


1)-------------7--5--------------
2)-------------------8-7----4-5--
3)-7-----7--------------7--------
4)---9-9---9---------------------
5)-------------------------------
6)-------------------------------

Fuente: Tusacordes