a b c d e f g h i j k l m n o p q r s t u v w x y z 0-9

El Bueno El Malo Y El Feo

Musica De Tv

			
dejen los dedos en el 2,g y 3,b para que suene parecido mandeme un mensaje para corregir

E|--------------------------------------------------------------|
B|-----3-----3--------------------------------------------------|
G|--2-----2--------2-------0------------------------------------|
D|----------------------3---------0-----------------------------|
A|--------------------------------------------------------------|
E|--------------------------------------------------------------|


E|--------------------------------------------------------------|
B|-----3------3-------------------1-----------------------------|
G|-2-------2------2---------0-----------------------------------|
D|--------------------3-----------------------------------------|
A|--------------------------------------------------------------|
E|--------------------------------------------------------------|

E|--------------------------------------------------------------|
B|-----3------3-------------------------------------------------|
G|-2------2------2----------------------------------------------|
D|-------------------3-------2-------0--------------------------|
A|----------------------------------------3 --------------------|
E|--------------------------------------------------------------|

E|--------------------------------------------------------------|
B|------3------3------------------------------------------------|
G|--2-------2----------0----------------------------------------|
D|---------------------------0-------0--------------------------|
A|--------------------------------------------------------------|
E|--------------------------------------------------------------|

E|--------------------------------------------------------------|
B|-----3------3-------------------1-----------------------------|
G|-2-------2------2---------0-----------------------------------|
D|--------------------3-----------------------------------------|
A|--------------------------------------------------------------|
E|--------------------------------------------------------------|




E|--------------------------------------------------------------|
B|----3--------3------------------------------------------------|
G|-2------2--------------3---------2-----0----------------------|
D|--------------------------------------------3-----------------|
A|--------------------------------------------------------------|
E|--------------------------------------------------------------|


E|--------------------------------------------------------------|
B|------3------3------------------------------------------------|
G|--2-------2----------0----------------------------------------|
D|---------------------------0-------0--------------------------|
A|------------------------------------------------0-------------|
E|--------------------------------------------------------------|

Fuente: Tusacordes