a b c d e f g h i j k l m n o p q r s t u v w x y z 0-9

Dragon Ball Z _tapion

Musica De Tv

			
con acompañamientos entre  bajando desde la cuarta cuerda tipo arpegio o sino de algun modo que le guste mas XD ojala les guste


       do                  re         la                  re
1--------------------------------------------------------------I
2--------------------------------------------------------------I
3--------------------------------------------------------------I
4------3--10--8---6---4--6-3---5--5--6---6---8---6---5-I
5--3-3---------------------------------------------------------I
6--------------------------------------------------------------I



       do                  re         la                  re

1-------3-10--8---6---7--6-3---5--6--6---6---8---6---5-I
2--3-3---------------------------------------------------------I
3--------------------------------------------------------------I
4--------------------------------------------------------------I
5--------------------------------------------------------------I
6--------------------------------------------------------------I



       do                  re         la                  re

1-------3-10--8---6---7--6-3---5--6--6---6---8---6---5-I
2--3-3---------------------------------------------------------I
3--------------------------------------------------------------I
4--------------------------------------------------------------I
5--------------------------------------------------------------I
6--------------------------------------------------------------I

Fuente: tusacordes.com