a b c d e f g h i j k l m n o p q r s t u v w x y z 0-9

Dragon Ball Gt

Musica De Tv

			
e|--3?3?0?1?3---5?3?1---0------0?0---------0--1--0----------------|
B|--------------------------3---------1--3---------3--1--0--------|
G|------------------------------------------------------------2--2|
D|----------------------------------------------------------------|
A|----------------------------------------------------------------|
E|----------------------------------------------------------------|

e|----------5-h?3?--3------------------------------------------------|
B|----------------------3----3----5--?6---5---3----1---5---6-p-5---3-|
G|-2?2--5------------------------------------------------------------|
D|-------------------------------------------------------------------|
A|-------------------------------------------------------------------|
E|-------------------------------------------------------------------|

e|--3?3?0?1?3---5?3?1---0------0?0---------0--1--0----------------|
B|--------------------------3---------1--3---------3--1--0--------|
G|------------------------------------------------------------2--2|
D|----------------------------------------------------------------|
A|----------------------------------------------------------------|
E|----------------------------------------------------------------|

e|----------5-h?3?-3----------------------------------------------------|
B|--------------------3-----3-----5--?6---5---3----1---5---3---1--0--1--|
G|-2?-2--5--------------------------------------------------------------|
D|----------------------------------------------------------------------|
A|----------------------------------------------------------------------|
E|----------------------------------------------------------------------|

e|-------8---8---8---8---8----6----4----6----8-----6---|
B|--1--------------------------------------------------|
G|-----------------------------------------------------|
D|-----------------------------------------------------|
A|-----------------------------------------------------|
E|-----------------------------------------------------|

e|--6---6---6---6----6--4---3---4----6------4----|
B|-----------------------------------------------|
G|-----------------------------------------------|
D|-----------------------------------------------|
A|-----------------------------------------------|
E|-----------------------------------------------|

e|--4--4--4-----4-3-------3------------------------------|
B|---------------------6-------6-----6-----4-----6-/8----|
G|-------------------------------------------------------|
D|-------------------------------------------------------|
A|-------------------------------------------------------|
E|-------------------------------------------------------|


Fuente: tusacordes.com