a b c d e f g h i j k l m n o p q r s t u v w x y z 0-9

D-generation X

Musica De Tv

			
Intro 
e---------------------------------------------------------------------- 
b---------------------------------------------------------------------- 
g---------------------------------------------------------------------- 
d---------------------------------------------------------------------- 
a----5------55-7777-----5---223322------------------------------------- 
E-000---0-0---------000---00------------------------------------------- 
 
Chorus: 
e---------------------------------------------------------------------- 
b---------------------------------------------------------------------- 
g---------------------------------------------------------------------- 
d---------------------------------------------------------------------- 
a---7p5h7--2-3---------7p5h7-2-3--------------------------------------- 
E-0------------2-3p2-0-----------2--00------00-------00----00----------

Fuente: tusacordes.com