a b c d e f g h i j k l m n o p q r s t u v w x y z 0-9

Cumbia Papal - Los Puntos Cardenales - Sin Codificar

Musica De Tv

C
G
D
E
F
			
Lo mejor seria hacerlo con 1 guitarra y un bajo, pero tambien se puede hacer 
con dos guitarras, una haciendo los punteos el ritmo abajo arriba abajo y la 
otra siguiendo los acordes con un bajo, que seria 
C 
4]--2-5- 
5]-3----

G

5]--2-5-
6]-3----

1] -8-8---8-10-12-12-10-8--/--12-12-----12-13-15-13-12----------------------
2] ------8------------------------/-----------13----------------------------
3] --------------------------------/----------------------------------------
4] --------------------------------/----------------------------------------
5] --------------------------------/----------------------------------------
6] --------------------------------/----------------------------------------


C C G C D E E D C E E C E F G F E [notas de la tablatura]

   C
Arriba las manos los apostólicos romanos
Arriba las manos los apostólicos romanos
El que no hace palmas 
Es hijo del diablo


1] -11[x12] -10-8-11[x12] -1011[x12] -10-8-11[x12] -10-----------------------
2] --------------------------------------------------------------------------
3] --------------------------------------------------------------------------
4] --------------------------------------------------------------------------
5] --------------------------------------------------------------------------
6] --------------------------------------------------------------------------

Do
Francisco primero
Te quiere el mundo entero
Por derecho divino 
El papa es argentino

Estribillo 
1]8-8-8-8-10-11-10----/-8-8-8-8-10-11-10-/-8-8-8-8--------10----/-8-8-8-8--------------------
2]----------------------11-/--------------------/-----------11-10---11-/----------11-11-10-8-
3]------------------------/----------------------/------------------------/------------------
4]------------------------/----------------------/------------------------/---------------- X2
5]------------------------/----------------------/------------------------/------------------
6]------------------------/----------------------/------------------------/------------------
C          G 
Brasilero Brasilero 
C             G 
Que amargado se te ve
C              G 
Tenemo a pancho primero 
C           G 
Que es más grande

Brasilero Brasilero 
Que amargado se te ve
Maradona y pancho 1
Son más grandes que pele
 
C
Lo dice el vaticano 
Lo gritan en las canchas
Francisco es argentino 
Y el papa no se mancha

C
Y la manito de los fieles
Ahí ahí
Y la manito de los fieles
Ahí ahí

[Estribillo]
Brasilero Brasilero 
Que amargado se te ve
Tenemo a pancho primero 
Que es más grande que pele

Brasilero Brasilero 
Que amargado se te ve
Messi Maradona y Pancho 
Son más grandes que pele

C
El que no se mueve
Es amigo de judas
Y el que no se confiesa 
Se le escapa la tortuga

Brasilero Brasilero 
Que amargado se te ve
La misa no es con caipiriña 
Comulgamos con fernetFuente: Tus acordes