a b c d e f g h i j k l m n o p q r s t u v w x y z 0-9

Comercial De Hermanos Vazques

Musica De Tv

			

INTRO:
              >---------------------|   
              >---------------------|   
CONTINUACION  >---------------------|   
DEL INTRO-->  >---------------------|   
              >-------3-33--3-0---0-|
              >-0-1-11---------3-0--|

1E----------------|
2B----------------|
3G----------------|
4D|---------------|
5A|--------3--3-0-| 
6E|-1-1--1--------|

1E-------------------------|
2B-------------------------|
3G-------------------------|
4D|------------------------|
5A|-----777-----777-----777|
6E|-555-----555-----555----|

 

Fuente: tusacordes.com