a b c d e f g h i j k l m n o p q r s t u v w x y z 0-9

Cancion D La Alegria

Musica De Tv

			
1]----0-0--1--3-3-1--0------------------!
2]---3--1-1---3--5--5--3--3-------------!
3]--------------------------------------!
4]--------------------------------------!
5]--------------------------------------!
6]--------------------------------------!

1]---0-0--1--3-3-1-0--------------------
2]--3---1-1--3--5--3--1-1---------------
3]--------------------------------------
4]--------------------------------------
5]--------------------------------------
6]--------------------------------------

1]--3-3--5--1--3--5--6--5--1--3--5--6--5--3--1--3
2]----------0------------------------------------
3]-----------------------------------------------
4]-----------------------------------------------
5]-----------------------------------------------
6]-----------------------------------------------




POR HAY VA DJEN SU COMENTARIO F. DARKKKKK

Fuente: tusacordes.com