a b c d e f g h i j k l m n o p q r s t u v w x y z 0-9

Caballeros Del Zodiaco - Arpa De Abel

Musica De Tv

			
|1|7--10--12--9------7--10>14--14-17-19--16-14-12-14-------------
|2|7----------10-10--7---------15--------17-------15-------------
|3|7----------9------7---------14--------16-------14-------------
|4|9----------11-----9-------------------------------------------
|5|9-----------------9-------------------------------------------
|6|7-----------------7-------------------------------------------



|1|7--10--12--9------7--10>14--12-10-9---9-----------------------
|2|7----------10-10--7---------14----------12-10-12--------------
|3|7----------9------7---------14--------------------------------
|4|9----------11-----9-------------------------------------------
|5|9-----------------9-------------------------------------------
|6|7-----------------7-------------------------------------------



|1|-17-19-17-16-14--16-17-191719-16-14---10-12-101210-9--7-------
|2|--------------------------------------------------------------
|3|--------------------------------------------------------------
|4|--------------------------------------------------------------
|5|--------------------------------------------------------------
|6|--------------------------------------------------------------Fuente: Tus acordes