a b c d e f g h i j k l m n o p q r s t u v w x y z 0-9

Bob Esponja

Musica De Tv

			
6.-----------5-----------5 Intro
5.----------7-----------7-
4.------------------------
3.------------------------
2.------------------------
1.-7-6-7-9-7---7-6-7-9-7--x2


6.-x00000000000000000--Medio Principal
5.-x00000000000000000--
4.-x00000000000000000--
3.-x00000000000000000--
2.-799999999997799999--
1.-888888888888888888-8

6.----------------|-------------Intermedio
5.----------------|-------------
4.----------------|-------------
3.----------------|-------------
2.-12-12-12-14-12-|12-12--------
1.-13-13-13-13-13-|12-12-12-11-10

6.---------------------------------Final
5.---------------------------------
4.---------------------------------
3.---------------------------------
2.---------------------------------
1.-7-6-7-9-7---13-12-15-13-15-15/16

 Si se fijan, puse las tabs de manera que la cuerda seis sea la de hasta arriba para no complicarnos, suerte y disfruten de esta canción

Fuente: tusacordes.com