a b c d e f g h i j k l m n o p q r s t u v w x y z 0-9

Bob Esponja Tema Principal

Musica De Tv

			
Esta es la canci?n de bob esponja 


Vive en una pi?a debajo del mar       bob esponja
e|----------------------------|     e|-----------------|
B|----------------------------|     b|-----------------|
G|---7-7-9-7--------7-9-7-----|     g|---8--5--3?-0----|
d|-----------9----9-------9---|     d|-----------------|
a|-------------10-------------|     a|-----------------|
d|----------------------------|     d|-----------------|

su cuerpo absorbe y sin estallar      bob esponja
e|----------------------------|     e|------------------|
B|--8-8-10-8--------8-10-8----|     b|---8--5--3--0-----|
G|-----------9----9--------9--|     g|------------------|
D|-------------10-------------|     d|------------------|
A|----------------------------|     a|------------------|
D|----------------------------|     d|------------------|

El mejor amigo que podre?ias desear   bob esponja
e|----------------------------|     e|-----------------|
B|----------------------------|     b|-----------------|
G|---7-7-9-7--------7-9-7-----|     g|---8--5--3?-0----|
d|-----------9----9-------9---|     d|-----------------|
a|-------------10-------------|     a|-----------------|
d|----------------------------|     d|-----------------|

y como a un pez le ez facil flotar   bob esponja
e|----------------------------|     e|------------------|
B|--8-8-10-8--------8-10-8----|     b|---8--5--3--0-----|
G|-----------9----9--------9--|     g|------------------|
D|-------------10-------------|     d|------------------|
A|----------------------------|     a|------------------|
D|----------------------------|     d|------------------|

Todos   bob esponja    bob esponja    bob esponja
e|-------------------------------------------------|
B|------8--5--3--0-----8--5--3--0-----8--5--3--0---|
G|-------------------------------------------------|
D|-------------------------------------------------|
A|-------------------------------------------------|
D|-------------------------------------------------|


     El es bob esponja
e|----------------------|
B|------------7--8--8---|
G|---7--7--9------------|
D|----------------------|
A|----------------------|
D|----------------------|

Fuente: tusacordes.com