a b c d e f g h i j k l m n o p q r s t u v w x y z 0-9

Bob Esponja - Final (créditos)

Musica De Tv

			
Guitarra 1 
* Pasar rápido al siguiente riff.
Puedes/Podés tocar este riff desplazando algo de metal sobre los trastes como una armonica ,le da un efecto especial y es más parecida a la canción original
1-12-11-12-14-12----------------
2-12-11-12-14-12----------------
3-------------------------------
4-------------------------------
5-------------------------------
6-------------------------------

1-12-11-12-14-12----------------
2-12-11-12-14-12----------------
3-------------------------------
4-------------------------------
5-------------------------------
6-------------------------------

1-12-11-12-14-12-*--------------
2-12-11-12-14-12-*--------------
3-------------------------------
4-------------------------------
5-------------------------------
6-------------------------------

1-12-14-15x3-14-12------------
2-12-14-15x3-14-12------------
3-------------------------------
4-------------------------------
5-------------------------------
6-------------------------------

1-12-11-12-14-12----------------
2-12-11-12-14-12----------------
3-------------------------------
4-------------------------------
5-------------------------------
6-------------------------------

1-12-11-12-14-12----16-17-------
2-12-11-12-14-12----16-17-------
3-------------------------------
4-------------------------------
5-------------------------------
6-------------------------------

Guitara 2
1---7---7---7--7---------------
2---9---9---9--9---------------
3---9---9---9--9---------------
4------------------------------
5-----7-------7----------------
6-7-------7--------------------
Repetir toda la canción

Fuente: tusacordes.com