a b c d e f g h i j k l m n o p q r s t u v w x y z 0-9

Bob Esponja - Cancion De Los Creditos

Musica De Tv

			
Puede tokrse con dos guitarras pero si es con una 
e |----------------------------|
B |------9-----9------9-----9--|
G |------9-----9------9-----9--|
D |---------9------------9-----|riff1
A |---7-----------7------------|
E |----------------------------|

esto se usa despues de cada riff 2 




e |---7-6-7-9-7-9-7|
B |----------------|
G |----------------|4x
D |----------------|riff 2 
A |----------------|
E |----------------|
nota:despues de cada esta se hace la de arriba si es con una sola guitarra


E |-12-12---14-15-14-15-14------|
B |-12-12-----------------------|
G |-----------------------------|
D |-----------------------------|
A |-----------------------------|
E |-----------------------------|


E |--12-12-14-15-15-15-14-12------|
B |--12-12------------------------|
G |-------------------------------|
D |-------------------------------|
A |-------------------------------|
E |-------------------------------|


e |---7-6-7-9-7----|
B |----------------|
G |----------------|
D |----------------|
A |----------------|
E |----------------|


e |---7-6-7-9-7----|
B |----------------|
G |----------------|
D |----------------|
A |----------------|
E |----------------|


e |---11/12--------|
B |----------------|
G |----------------|
D |----------------|
A |----------------|
E |----------------|


es facil....

Fuente: tusacordes.com