a b c d e f g h i j k l m n o p q r s t u v w x y z 0-9

Bob Esponja (soundtrack)

Musica De Tv

			
"Bob Esponja Soundtrack"
_______________________________
·Transcripto por: Sebastián Ara.
·Buenos Aires, Argentina, 2009
·Email MSN: playing.the.angel_@hotmail.com
_______________________________

***NOTA IMPORTANTE: Este no es el tema con el que comienza la serie,
es el tema de cuando aparecen los créditos al final de cada capítulo***

BAJO RIFF:
G|----------------
D|---9...---9...--
A|-7------7-------
E|----------------
Repite toda la canción


Guitarra:
e|-------------------------------------------
B|-12-11-12-14-12--------12-11-12-14-12-----
G|------------------------------------------
D|-------------------------------------------
A|-------------------------------------------
E|-------------------------------------------

e|------------------12-12---14h16-14h16p14--12--12-------
B|-12-11-12-14-12----------------------------------------
G|-------------------------------------------------------
D|-------------------------------------------------------
A|------------------------------------------------------
E|------------------12-12-------------------12--12-------

e|-14-15-15-15-14-12-------------------11-11b-----
B|---------------------12-11-12-14-12-------------
G|------------------------------------------------
D|-------------------------------------------------
A|------------------------------------------------
E|------------------------------------------------

RIFF DE BAJO ALTERNATIVO En vez de hacerlo con un bajo, con la guitarra, pueden hacer este
riff o el de arriba de todo.
e|----------------
B|----12--9---12--
G|----------------
D|9---------------
A|----------------
E|----------------
repite toda la canción

Fuente: tusacordes.com