a b c d e f g h i j k l m n o p q r s t u v w x y z 0-9

Bob Esponja (cancion Que Toca Calamardo En El

Musica De Tv

			
esta cancion la toca calamardo en el capitulo de el minicalamardo
ojala les guste










e|--13-12-13-15-13----------------------------------------------|
B|-----------------15-14-15-17-15-------------------------------|
G|--------------------------------17-16-17-19-17--13-12-13-15~--|
D|--------------------------------------------------------------|
A|--------------------------------------------------------------|
D|--------------------------------------------------------------|

e|--13-12-13-15-13----------------------------------------------|
B|-----------------15-14-15-17-15-------------------------------|
G|--------------------------------17-16-17-19-17--13-12-13-15~--|
D|--------------------------------------------------------------|
A|--------------------------------------------------------------|
D|--------------------------------------------------------------|

Fuente: tusacordes.com