a b c d e f g h i j k l m n o p q r s t u v w x y z 0-9

Batman

Musica De Tv

			

  
               "Batman"

e.--------------------------------------
B.--------------------------------------
G.--------------------------------------
D.-5-5-5-5-5-5-5-5-5-5-5-5-5-5-5-5------
A.-7-7-6-6-5-5-6-6-7-7-6-6-5-5-6-6------
E.-5-5-5-5-5-5-5-5-5-5-5-5-5-5-5-5------

e.--------------------------------------
B.--------------------------------------
G.-5-5-5-5-5-5-5-5-5-5-5-5-5-5-5-5------
D.-7-7-6-6-5-5-6-6-7-7-6-6-5-5-6-6------
A.-5-5-5-5-5-5-5-5-5-5-5-5-5-5-5-5------
E.--------------------------------------

e.--------------------------------------
B.--------------------------------------
G.--------------------------------------
D.-5-5-5-5-5-5-5-5-5-5-5-5-5-5-5-5------
A.-7-7-6-6-5-5-6-6-7-7-6-6-5-5-6-6------
E.-5-5-5-5-5-5-5-5-5-5-5-5-5-5-5-5------

e.--------------------------------------
B.--------------------------------------
G.--------------------------------------
D.--------------------------------------
A.-5-5-5-5-5-5-5-5-5-5-5-5-5-5-5-5------
E.-7-7-6-6-5-5-6-6-7-7-6-6-5-5-6-6------

e.--------------------------------------
B.--------------------------------------
G.--------------------------------------
D.-5-5-5-5-5-5-5-5-5-5-5-5-5-5-5-5------
A.-7-7-6-6-5-5-6-6-7-7-6-6-5-5-6-6------
E.-5-5-5-5-5-5-5-5-5-5-5-5-5-5-5-5------


Fuente: tusacordes.com