a b c d e f g h i j k l m n o p q r s t u v w x y z 0-9

Bat-man

Musica De Tv

			
todo esto se toka muy rapido...
e|----------------------------------|
b|----------------------------------|
g|------------------------------4-4-|
D|------------------------------2-2-|
A|-4-4-3-3-2-2-3-3-4-4-3-3-2-2------|
E|----------------------------------|

al igual k esto...
e|-----------------------------------|
b|-----------------------------------|
g|-------------------------------4-4-|
D|-4-4-3-3-2-2-3-3-4-4-3-3-2-2---2-2-|
A|-----------------------------------|
E|-----------------------------------|

y todo se vuelve a repetir...

Fuente: tusacordes.com