a b c d e f g h i j k l m n o p q r s t u v w x y z 0-9

Chinga Tu Madre

Molotov

			
se toca tres veces
E|------------------------|
B|------------------------|
G|------------------------|
D|------0-4-4-4-4-2-------|
A|------------------4-2-4-|
E|--0-2-------------------|

y despues sigue esto:
E|--------------------------|
B|--------------------------|
G|----------------1/3-------|
D|------0-4-4-4-4-----4-2-4-|
A|--------------------------|
E|--0-2---------------------|

E|----2~~--------14~~--------2~~---------14~~-|
B|--------------------------------------------|
G|--------------------------------------------|
D|--------------------------------------------|
A|---------1-2---------1-2---------1-2--------|
E|--2----------2-----------2-----------2------|

siempre en domingo chinguen a su madre...
con wah
E|-^-^-^-^-^--^--^--^--^--^--^--^--^--^--^--^--^---^-^-^-^-^-^-^-^-^------|
B|-7-7-8-9-10-11-12-12-13-14-14-15-15-16-17-18-18--191919191919191919--17-|
G|-7-7-8-9-10-11-12-12-13-14-14-15-15-16-17-18-18--191919191919191919--17-|
D|------------------------------------------------------------------------|
A|------------------------------------------------------------------------|
E|------------------------------------------------------------------------|

Fuente original ATAME [www.atame.org]
Colaborador original: Alfonso Esparza [poncho@metallica.com]

Fuente: tusacordes.com