a b c d e f g h i j k l m n o p q r s t u v w x y z 0-9

Blackened

Metallica

			
entra en el segundo compas para hacer el efecto 
con un distor y le van subiendo el volumen poco a poco

g-4----------------------------5----7---------4----5----7----
d----------------------------------------2-------------------
a-2----------------------------3----5---------2----3----5----
e----------------------------------------0-------------------

g----------4--5----7---------4----5----7------------------------
d-2----4-5--------------2-------------------2-------------------
a----------2--3----5---------2----3----5---------1-----2-3-3----
e-0----2-3--------------0-------------------0------2-3-------1-0

g---esta es la parte k solo lleva guitarra 
d---
a---
e-0-

esta parte fortalece la ultima parte de la guitarra sola
g-------------------------------
d-------------------------------
a-------------------------------
e-3-3-3-3-0-3-3--3-3-3-3-0-2-2--

aki ya entra bien todo el grupo

g-------------------------------------------------------------
d-------------------------------------------------------------
a-7-7-7-8-7-7-7---7-7-7-7-8-7-------2-3-3-----7-7-7-8-7-7-7---
e---------------6-------------6-2-3-------1-0---------------6-

g------------------------------estos 2 compases se repiten 4
d------------------------------veces y continua lo de abajo
a-7-7-7-7-8-7-------2-3-3------
e-------------6-2-3-------1-0--

g-------------------------------------------------se repite
d-------------------------------------------------una vez mas
a-------------1-----2-1---------------1-----2-1---
e-0-0-0-0-0-0---2-3-----3-0-0-0-0-0-0---2-3-----3-

1er verso

g-------------------------------------------------------------
d-------------------------------------------------------------
a-------------1-----2-1---------------1-----2-1---------------
e-0-0-0-0-0-0---2-3-----3-0-0-0-0-0-0---2-3-----3-0-0-0-0-0-0-

g-------------------------------------de repite
d-------------------------------------una vez mas
a-1-----2-----------------1-----2-1---
e---2-3---2-3-3-3-3-3-3-3---2-3-----3-

puente

g-------------------------------------------------------------
d-------------------------------------------------------------
a-7-7-7-8-7-7-7---7-7-7-7-8-7-------2-3-3-----7-7-7-8-7-7-7---
e---------------6-------------6-2-3-------1-0---------------6-

g-------------------------
d-------------------------
a-7-7-7-7-8-7---7---------
e-------------6---0-0-0-0-

coro

g---------------------------------------------------------------
d---------------------------------------------------------------
a-7------0-0-5------3------------------------------------7------
e-0-------------3-3----3-3-2---2-2-2-2-0-3-3-3---3-3-3---0------

g------------------------------------------------
d------------------------------------------------
a-0-0-5------3-3---------------------------------
e--------3-3-----3-2---2-2-2-2-0-3-3-3-3-0-2-2---

el 2do puente va sin bajo

el 2do verso va igual k el primero

tambien se repite el puente 

coro 2

g---------------------------------------------------------------
d---------------------------------------------------------------
a-7------0-0-5------3------------------------------------7------
e-0-------------3-3----3-3-2---2-2-2-2-0-3-3-3---3-3-3---0------

g------------------------------------------------
d------------------------------------------------
a-0-0-5------3-3---------------------------------
e--------3-3-----3-2---2-2-2-2-0-3-3-3-3-0-2-2---



g---------------------------------------------------------------
d---------------------------------------------------------------
a-7------0-0-5------3------------------------------------7------
e-0-------------3-3----3-3-2---2-2-2-2-0-3-3-3---3-3-3---0------

g------------------------------------------------------
d------------------------------------------------------
a-0-0-5------3-3---------------------------------------
e--------3-3-----3-2---2-2-2-2-0-3-3-3-3-0-2-2---1-1---

interludio

g-----------------------------------------se deja sonando esta 
d-----------------------------------------nota 5 compases
a-----------------------------------------y sigue
e-0---------------------------------------con esto

g-----------------------------------------------------------
d-----------------------------------------------------------
a----------------------------------------------6-6--6-6-----
e-0--0-0-0-0-0-0-0--0-0-0-0-0-0-0--0-0-0-0-5-6----------0-5-

g--------------------------------------------------------------
d--------------------------------------------------------------
a---7-------------8-7---------------7-------------6----6-6-----
e-6---0-0-0-0-5-6-----0-0-0-0-0-5-6---0-0-0-0-5-6----------0-5-

g-------------------------------------------------
d-----------------8-------------------------------
a-------------7-----7---------------7-------------
e-6-7-0-0-0-0---6-----0-0-0-0-0-5-6---0-0-0-0-6-0-

3er verso

g--------------------------------------------------------------
d--------------------------------------------------------------
a-6-6-6-6-6-6---7----7-7-7----------7-7-7---7------7-7-7---7-5-
e-------------0---0--------5-7-6-0--------5---6-0--------0-----

g------------------------------------------------------------
d------------------------------------------------------------
a-6---6-6-5-7------7-7-7----------7-7-7-0-7------7-7-7---7-5-
e-------------6-0--------5-7-6-0------------6-0--------0-----

g---------------------------------------------------------------
d------------------4-------------5-4---------------4------------
a-6--6-6-6-----2-3-------------2---------------2-3---------3-2--
e----------0-2-------2-2-2-0-2-------2-2-2-0-2-------2-2-2------

g--------------------------------------------------------------
d--------------------------------------------------------------
a------------------7-------------8-7---------------7-----------
e-1--1-1-1-1-0-5-6---0-0-0-0-5-6-----0-0-0-0-0-5-6---0-0-0-5-6-

g------------------------------------------------------------
d----------------------------8-------------------------------
a-6------------7---------7-----7---------------7-------------
e--------0-5-6---0-0-0-0---6-----0-0-0-0-0-5-6---0-0-0-0-6-0-

4to verso

g-------------------------------------------------------------
d-------------------------------------------------------------
a-6---6---6-----7----7-7-7-0--------7-7-7-0-7-5-6---6-6-5-7---
e---4---4---4-0---0----------7-6-0--------------------------6-

g--------------------------------------------------------------
d--------------------------------------------------------------
a----7-7-7----------7-7-7---7------7-7-7---7-5-6---6-6-6-----2-
e-0--------5-7-6-0--------5---6-0--------0---------------0-2---

g-------------------------------------------
d-5-4---------------4------------------3----
a---------------2-3---------3-2-------------
e-----2-2-2-0-2-------2-2-2-----3-1---------

pre solo de guitarra 

g----------------------
d---9---7--------------
a-7---7-5--------------
e----------8-8--7-3-2--

g----------------------------------------------se repite
d----------------------------------------------4 veces
a----7---5-3-3--2-2--------7---5-3-3--2-2------esta linea
e-0----5-------------3-2-0---5-------------3-2-

solo de guitarra

g----------------------------------se repite 5 veces
d------------------------------4-5-
a-----------------------------2-3--
e-0-3-0-2-0-3-0-2-0-3-0-2-0-3------y continua con esto

g-------------------------------------------------------------
d-------------------------------------------------------------
a-----------------------------2-3-----------------------------
e-0-3-0-2-0-3-0-2-0-3-0-2-0-3-------3-33-3-0-2-2-3-33-3-0-2-2-

g---------9-9-9-9-9-9-9-9-9-9-9-9-9-9-9-9-----------------------
d---------------------------------------------------------------
a-----------------------------------------7-7-7-7-7-7-7-7-7-7-7-
e-1-1-----------------------------------------------------------

g-----------------------------------------------------------
d-----------------------------------------------------------
a-7-7-7-7-7---8---8---8---8---7---7-----5-7---7---7---7---7-
e-----------0---0---0---0---0---0---0-0-----0---0---0---0---

g-------------------------------------------------------------
d-------------------------------------------------------------
a---5---5---5---5---8---8---8---8---7---7-5-7-----------------
e-0---0---0---0---0---0---0---0---0---0-------0-0-0-0-0-0-0-0-

g------------------------------------------------------
d-2----------0-----------------------------------------
a--------0-0--------3----------------------------------
e-0-------------3-3----3-3-2---2-2-2-2-0-33-3---33-3---


g---------------------------------------------------
d---------------------------------------------------
a-7------0-0-5------3-------------------------------
e-0-------------3-3----3-3-2---2-2-2-2-0-3-33-3-3-3-

g---------------------------------------------------------
d---------------------------------------------------5---5-
a---7---7---7---7---7---7---7---7---5---5---5---5-3---3---
e-0---0---0---6---5---5---5---5---3---3---3---3-----------

g----------
d----------
a---5----5-
e-3---3----

g---------------------------------------------------------
d---------------------------------------------------5---5-
a---7---7---7---7---7---7---7---7---5---5---5---5-3---3---
e-0---0---0---6---5---5---5---5---3---3---3---3-----------

g---------------------
d---------------------
a---5---5-------------
e-3---3---3-3-3-3-3-3-

fin del solo de guitarra igual que el puente

se repite el verso
 
se repite el puente

se repite el coro

bueno esa es toda la rola espero la puedan sacar la digite lo mejor posible para k les sirva nos leemos en la k sigue

Fuente: tusacordes.com